ISO-10303-21;
HEADER;
FILE_DESCRIPTION(('CATIA V5 STEP Exchange','CAx-IF Rec.Pracs.--- Model Styling and Organization---1.5--- 2016-08-15','CAx-IF Rec.Pracs.---Supplemental Geometry---1.0---2011-11-01','CAx-IF Rec.Pracs.--- Composite Materials ---3.4---2017-06-13','CAx-IF Rec.Pracs.---Tessellated 3D Geometry---1.0---2015-12-17'),'2;1');

FILE_NAME('Q:\\Rendering\\SY\\SY090710.stp','2025-03-26T09:25:58+00:00',('none'),('none'),'CATIA Version 5-6 Release 2020 SP2','CATIA V5 STEP AP242 v2','none');

FILE_SCHEMA(('AP242_MANAGED_MODEL_BASED_3D_ENGINEERING_MIM_LF  {1 0 10303 442 1 1 4}'));

ENDSEC;
DATA;
#5=PRODUCT('SY090710','SY090710','',(#2)) ;
#2=PRODUCT_CONTEXT(' ',#1,'mechanical') ;
#1=APPLICATION_CONTEXT('managed model based 3d engineering') ;
#10=PRODUCT_DEFINITION('',' ',#6,#3) ;
#3=PRODUCT_DEFINITION_CONTEXT('part definition',#1,' ') ;
#11=PRODUCT_DEFINITION_SHAPE(' ',' ',#10) ;
#301=MECHANICAL_DESIGN_GEOMETRIC_PRESENTATION_REPRESENTATION(' ',(#29),#16) ;
#7=PRODUCT_CATEGORY('part','specification') ;
#19=SHAPE_REPRESENTATION(' ',(#18),#16) ;
#17=CARTESIAN_POINT(' ',(0.,0.,0.)) ;
#31=CARTESIAN_POINT('Axis2P3D Location',(0.,25.,0.)) ;
#36=CARTESIAN_POINT('Line Origine',(-10.,25.,0.)) ;
#40=CARTESIAN_POINT('Vertex',(-10.,0.,0.)) ;
#42=CARTESIAN_POINT('Vertex',(-10.,49.5,-1.13310777953E-14)) ;
#45=CARTESIAN_POINT('Axis2P3D Location',(0.,0.,0.)) ;
#49=CARTESIAN_POINT('Vertex',(10.,0.,1.22464679915E-15)) ;
#52=CARTESIAN_POINT('Line Origine',(10.,25.,1.22464679915E-15)) ;
#56=CARTESIAN_POINT('Vertex',(10.,49.5,1.22464679915E-15)) ;
#59=CARTESIAN_POINT('Axis2P3D Location',(0.,49.5,0.)) ;
#71=CARTESIAN_POINT('Control Point',(3.,40.,9.53939201417)) ;
#72=CARTESIAN_POINT('Control Point',(3.,40.5582190201,9.53939201417)) ;
#73=CARTESIAN_POINT('Control Point',(2.8701631357,41.1164363587,9.580223819)) ;
#74=CARTESIAN_POINT('Control Point',(2.61130138596,41.6282507787,9.66203298385)) ;
#75=CARTESIAN_POINT('Control Point',(2.02384829221,42.3295658132,9.81132482768)) ;
#76=CARTESIAN_POINT('Control Point',(1.23227391512,42.7676577827,9.93123614255)) ;
#77=CARTESIAN_POINT('Control Point',(0.906324036544,42.8912762377,9.9675349207)) ;
#78=CARTESIAN_POINT('Control Point',(0.00630948982148,43.0896604937,10.0267065263)) ;
#79=CARTESIAN_POINT('Control Point',(-0.921625231537,42.9417894624,9.9827772858)) ;
#80=CARTESIAN_POINT('Control Point',(-1.46119908395,42.7116519506,9.91112105043)) ;
#81=CARTESIAN_POINT('Control Point',(-2.27003989486,42.1132527025,9.7523197225)) ;
#82=CARTESIAN_POINT('Control Point',(-2.77476222883,41.2534056839,9.61037358661)) ;
#83=CARTESIAN_POINT('Control Point',(-2.92492579864,40.8489468077,9.56300175824)) ;
#84=CARTESIAN_POINT('Control Point',(-3.,40.42447389,9.53939201417)) ;
#85=CARTESIAN_POINT('Control Point',(-3.,40.,9.53939201417)) ;
#86=CARTESIAN_POINT('Vertex',(3.,40.,9.53939201417)) ;
#88=CARTESIAN_POINT('Vertex',(-3.,40.,9.53939201417)) ;
#92=CARTESIAN_POINT('Control Point',(-3.,40.,9.53939201417)) ;
#93=CARTESIAN_POINT('Control Point',(-3.,39.4417809799,9.53939201417)) ;
#94=CARTESIAN_POINT('Control Point',(-2.8701631357,38.8835636414,9.580223819)) ;
#95=CARTESIAN_POINT('Control Point',(-2.61130138594,38.3717492213,9.66203298385)) ;
#96=CARTESIAN_POINT('Control Point',(-2.0238482922,37.6704341868,9.81132482768)) ;
#97=CARTESIAN_POINT('Control Point',(-1.23227391513,37.2323422174,9.93123614255)) ;
#98=CARTESIAN_POINT('Control Point',(-0.906324036479,37.1087237623,9.96753492071)) ;
#99=CARTESIAN_POINT('Control Point',(-0.00630948979798,36.9103395063,10.0267065263)) ;
#100=CARTESIAN_POINT('Control Point',(0.921625231513,37.0582105376,9.9827772858)) ;
#101=CARTESIAN_POINT('Control Point',(1.46119908401,37.2883480494,9.91112105041)) ;
#102=CARTESIAN_POINT('Control Point',(2.27003989489,37.8867472976,9.7523197225)) ;
#103=CARTESIAN_POINT('Control Point',(2.77476222884,38.7465943161,9.61037358661)) ;
#104=CARTESIAN_POINT('Control Point',(2.92492579864,39.1510531923,9.56300175824)) ;
#105=CARTESIAN_POINT('Control Point',(3.,39.57552611,9.53939201417)) ;
#106=CARTESIAN_POINT('Control Point',(3.,40.,9.53939201417)) ;
#113=CARTESIAN_POINT('Axis2P3D Location',(0.,49.5,0.)) ;
#118=CARTESIAN_POINT('Axis2P3D Location',(-9.5,49.5,-1.05471187339E-15)) ;
#122=CARTESIAN_POINT('Vertex',(-9.5,50.,-1.07899740119E-14)) ;
#125=CARTESIAN_POINT('Axis2P3D Location',(9.5,49.5,0.)) ;
#129=CARTESIAN_POINT('Vertex',(9.5,50.,-3.08088314073E-15)) ;
#132=CARTESIAN_POINT('Axis2P3D Location',(0.,50.,0.)) ;
#144=CARTESIAN_POINT('Axis2P3D Location',(8.881784197E-16,49.5,0.)) ;
#149=CARTESIAN_POINT('Axis2P3D Location',(8.881784197E-16,49.5,0.)) ;
#154=CARTESIAN_POINT('Axis2P3D Location',(8.881784197E-16,50.,0.)) ;
#166=CARTESIAN_POINT('Axis2P3D Location',(0.,50.,0.)) ;
#176=CARTESIAN_POINT('Axis2P3D Location',(0.,0.,0.)) ;
#188=CARTESIAN_POINT('Axis2P3D Location',(0.,0.,0.)) ;
#198=CARTESIAN_POINT('Axis2P3D Location',(0.,0.,22.)) ;
#203=CARTESIAN_POINT('Axis2P3D Location',(-1.53153294844E-15,40.,22.)) ;
#207=CARTESIAN_POINT('Vertex',(2.5,40.,22.)) ;
#209=CARTESIAN_POINT('Vertex',(-2.5,40.,22.)) ;
#212=CARTESIAN_POINT('Axis2P3D Location',(-1.53153294844E-15,40.,22.)) ;
#222=CARTESIAN_POINT('Axis2P3D Location',(0.,40.,11.)) ;
#227=CARTESIAN_POINT('Line Origine',(3.,40.,11.)) ;
#231=CARTESIAN_POINT('Vertex',(3.,40.,21.5)) ;
#234=CARTESIAN_POINT('Line Origine',(-3.,40.,11.)) ;
#238=CARTESIAN_POINT('Vertex',(-3.,40.,21.5)) ;
#241=CARTESIAN_POINT('Axis2P3D Location',(0.,40.,21.5)) ;
#253=CARTESIAN_POINT('Axis2P3D Location',(0.,40.,21.5)) ;
#265=CARTESIAN_POINT('Axis2P3D Location',(-1.7763568394E-15,40.,21.5)) ;
#270=CARTESIAN_POINT('Axis2P3D Location',(2.5,40.,21.5)) ;
#275=CARTESIAN_POINT('Axis2P3D Location',(-2.5,40.,21.5)) ;
#287=CARTESIAN_POINT('Axis2P3D Location',(-1.33226762955E-15,40.,21.5)) ;
#8=PRODUCT_RELATED_PRODUCT_CATEGORY('part',$,(#5)) ;
#15=UNCERTAINTY_MEASURE_WITH_UNIT(LENGTH_MEASURE(0.005),#12,'distance_accuracy_value','CONFUSED CURVE UNCERTAINTY') ;
#29=STYLED_ITEM(' ',(#28),#21) ;
#28=PRESENTATION_STYLE_ASSIGNMENT((#27)) ;
#27=SURFACE_STYLE_USAGE(.BOTH.,#26) ;
#26=SURFACE_SIDE_STYLE(' ',(#25)) ;
#25=SURFACE_STYLE_FILL_AREA(#24) ;
#24=FILL_AREA_STYLE(' ',(#23)) ;
#23=FILL_AREA_STYLE_COLOUR(' ',#22) ;
#38=VECTOR('Line Direction',#37,1.) ;
#54=VECTOR('Line Direction',#53,1.) ;
#229=VECTOR('Line Direction',#228,1.) ;
#236=VECTOR('Line Direction',#235,1.) ;
#32=DIRECTION('Axis2P3D Direction',(0.,1.,0.)) ;
#33=DIRECTION('Axis2P3D XDirection',(-1.,0.,0.)) ;
#37=DIRECTION('Vector Direction',(0.,1.,0.)) ;
#46=DIRECTION('Axis2P3D Direction',(0.,1.,0.)) ;
#53=DIRECTION('Vector Direction',(0.,1.,0.)) ;
#60=DIRECTION('Axis2P3D Direction',(0.,1.,0.)) ;
#114=DIRECTION('Axis2P3D Direction',(0.,1.,0.)) ;
#115=DIRECTION('Axis2P3D XDirection',(-1.,0.,-8.881784197E-17)) ;
#119=DIRECTION('Axis2P3D Direction',(1.11022302463E-16,0.,-1.)) ;
#126=DIRECTION('Axis2P3D Direction',(0.,0.,1.)) ;
#133=DIRECTION('Axis2P3D Direction',(0.,1.,0.)) ;
#145=DIRECTION('Axis2P3D Direction',(-0.,1.,0.)) ;
#146=DIRECTION('Axis2P3D XDirection',(1.,0.,1.7763568394E-16)) ;
#150=DIRECTION('Axis2P3D Direction',(-0.,1.,0.)) ;
#155=DIRECTION('Axis2P3D Direction',(-0.,1.,0.)) ;
#167=DIRECTION('Axis2P3D Direction',(0.,1.,-0.)) ;
#168=DIRECTION('Axis2P3D XDirection',(-1.,0.,0.)) ;
#177=DIRECTION('Axis2P3D Direction',(0.,1.,0.)) ;
#189=DIRECTION('Axis2P3D Direction',(0.,1.,-0.)) ;
#190=DIRECTION('Axis2P3D XDirection',(-1.,0.,0.)) ;
#199=DIRECTION('Axis2P3D Direction',(0.,0.,1.)) ;
#200=DIRECTION('Axis2P3D XDirection',(1.,0.,0.)) ;
#204=DIRECTION('Axis2P3D Direction',(0.,0.,1.)) ;
#213=DIRECTION('Axis2P3D Direction',(0.,0.,1.)) ;
#223=DIRECTION('Axis2P3D Direction',(0.,0.,1.)) ;
#224=DIRECTION('Axis2P3D XDirection',(1.,0.,0.)) ;
#228=DIRECTION('Vector Direction',(0.,0.,1.)) ;
#235=DIRECTION('Vector Direction',(0.,0.,1.)) ;
#242=DIRECTION('Axis2P3D Direction',(0.,0.,1.)) ;
#254=DIRECTION('Axis2P3D Direction',(0.,0.,1.)) ;
#266=DIRECTION('Axis2P3D Direction',(-0.,0.,1.)) ;
#267=DIRECTION('Axis2P3D XDirection',(1.,-2.36847578587E-15,0.)) ;
#271=DIRECTION('Axis2P3D Direction',(-2.38697950294E-15,-1.,0.)) ;
#276=DIRECTION('Axis2P3D Direction',(-2.6645352591E-15,1.,-0.)) ;
#288=DIRECTION('Axis2P3D Direction',(0.,-0.,1.)) ;
#289=DIRECTION('Axis2P3D XDirection',(-1.,4.73695157173E-15,0.)) ;
#300=SHAPE_REPRESENTATION_RELATIONSHIP(' ',' ',#19,#299) ;
#18=AXIS2_PLACEMENT_3D(' ',#17,$,$) ;
#34=AXIS2_PLACEMENT_3D('Cylinder Axis2P3D',#31,#32,#33) ;
#47=AXIS2_PLACEMENT_3D('Circle Axis2P3D',#45,#46,$) ;
#61=AXIS2_PLACEMENT_3D('Circle Axis2P3D',#59,#60,$) ;
#116=AXIS2_PLACEMENT_3D('Torus Axis2P3D',#113,#114,#115) ;
#120=AXIS2_PLACEMENT_3D('Circle Axis2P3D',#118,#119,$) ;
#127=AXIS2_PLACEMENT_3D('Circle Axis2P3D',#125,#126,$) ;
#134=AXIS2_PLACEMENT_3D('Circle Axis2P3D',#132,#133,$) ;
#147=AXIS2_PLACEMENT_3D('Torus Axis2P3D',#144,#145,#146) ;
#151=AXIS2_PLACEMENT_3D('Circle Axis2P3D',#149,#150,$) ;
#156=AXIS2_PLACEMENT_3D('Circle Axis2P3D',#154,#155,$) ;
#169=AXIS2_PLACEMENT_3D('Plane Axis2P3D',#166,#167,#168) ;
#178=AXIS2_PLACEMENT_3D('Circle Axis2P3D',#176,#177,$) ;
#191=AXIS2_PLACEMENT_3D('Plane Axis2P3D',#188,#189,#190) ;
#201=AXIS2_PLACEMENT_3D('Plane Axis2P3D',#198,#199,#200) ;
#205=AXIS2_PLACEMENT_3D('Circle Axis2P3D',#203,#204,$) ;
#214=AXIS2_PLACEMENT_3D('Circle Axis2P3D',#212,#213,$) ;
#225=AXIS2_PLACEMENT_3D('Cylinder Axis2P3D',#222,#223,#224) ;
#243=AXIS2_PLACEMENT_3D('Circle Axis2P3D',#241,#242,$) ;
#255=AXIS2_PLACEMENT_3D('Circle Axis2P3D',#253,#254,$) ;
#268=AXIS2_PLACEMENT_3D('Torus Axis2P3D',#265,#266,#267) ;
#272=AXIS2_PLACEMENT_3D('Circle Axis2P3D',#270,#271,$) ;
#277=AXIS2_PLACEMENT_3D('Circle Axis2P3D',#275,#276,$) ;
#290=AXIS2_PLACEMENT_3D('Torus Axis2P3D',#287,#288,#289) ;
#39=LINE('Line',#36,#38) ;
#55=LINE('Line',#52,#54) ;
#230=LINE('Line',#227,#229) ;
#237=LINE('Line',#234,#236) ;
#48=CIRCLE('generated circle',#47,10.) ;
#62=CIRCLE('generated circle',#61,10.) ;
#121=CIRCLE('generated circle',#120,0.5) ;
#128=CIRCLE('generated circle',#127,0.5) ;
#135=CIRCLE('generated circle',#134,9.5) ;
#152=CIRCLE('generated circle',#151,10.) ;
#157=CIRCLE('generated circle',#156,9.5) ;
#179=CIRCLE('generated circle',#178,10.) ;
#206=CIRCLE('generated circle',#205,2.5) ;
#215=CIRCLE('generated circle',#214,2.5) ;
#244=CIRCLE('generated circle',#243,3.) ;
#256=CIRCLE('generated circle',#255,3.) ;
#273=CIRCLE('generated circle',#272,0.5) ;
#278=CIRCLE('generated circle',#277,0.5) ;
#170=PLANE('',#169) ;
#192=PLANE('',#191) ;
#202=PLANE('',#201) ;
#35=CYLINDRICAL_SURFACE('generated cylinder',#34,10.) ;
#226=CYLINDRICAL_SURFACE('generated cylinder',#225,3.) ;
#117=TOROIDAL_SURFACE('homeo Torus',#116,9.5,0.5) ;
#148=TOROIDAL_SURFACE('homeo Torus',#147,9.5,0.5) ;
#269=TOROIDAL_SURFACE('homeo Torus',#268,2.5,0.5) ;
#291=TOROIDAL_SURFACE('homeo Torus',#290,2.5,0.5) ;
#111=FACE_BOUND('',#108,.T.) ;
#44=EDGE_CURVE('',#41,#43,#39,.T.) ;
#51=EDGE_CURVE('',#41,#50,#48,.T.) ;
#58=EDGE_CURVE('',#50,#57,#55,.T.) ;
#63=EDGE_CURVE('',#43,#57,#62,.T.) ;
#90=EDGE_CURVE('',#87,#89,#70,.T.) ;
#107=EDGE_CURVE('',#89,#87,#91,.T.) ;
#124=EDGE_CURVE('',#123,#43,#121,.F.) ;
#131=EDGE_CURVE('',#130,#57,#128,.F.) ;
#136=EDGE_CURVE('',#123,#130,#135,.T.) ;
#153=EDGE_CURVE('',#57,#43,#152,.T.) ;
#158=EDGE_CURVE('',#130,#123,#157,.T.) ;
#180=EDGE_CURVE('',#50,#41,#179,.T.) ;
#211=EDGE_CURVE('',#208,#210,#206,.T.) ;
#216=EDGE_CURVE('',#210,#208,#215,.T.) ;
#233=EDGE_CURVE('',#87,#232,#230,.T.) ;
#240=EDGE_CURVE('',#89,#239,#237,.T.) ;
#245=EDGE_CURVE('',#232,#239,#244,.T.) ;
#257=EDGE_CURVE('',#239,#232,#256,.T.) ;
#274=EDGE_CURVE('',#208,#232,#273,.F.) ;
#279=EDGE_CURVE('',#210,#239,#278,.F.) ;
#30=CLOSED_SHELL('Closed Shell',(#112,#143,#165,#175,#187,#197,#221,#252,#264,#286,#298)) ;
#65=ORIENTED_EDGE('',*,*,#44,.F.) ;
#66=ORIENTED_EDGE('',*,*,#51,.T.) ;
#67=ORIENTED_EDGE('',*,*,#58,.T.) ;
#68=ORIENTED_EDGE('',*,*,#63,.F.) ;
#109=ORIENTED_EDGE('',*,*,#90,.F.) ;
#110=ORIENTED_EDGE('',*,*,#107,.F.) ;
#138=ORIENTED_EDGE('',*,*,#124,.T.) ;
#139=ORIENTED_EDGE('',*,*,#63,.T.) ;
#140=ORIENTED_EDGE('',*,*,#131,.F.) ;
#141=ORIENTED_EDGE('',*,*,#136,.F.) ;
#160=ORIENTED_EDGE('',*,*,#131,.T.) ;
#161=ORIENTED_EDGE('',*,*,#153,.T.) ;
#162=ORIENTED_EDGE('',*,*,#124,.F.) ;
#163=ORIENTED_EDGE('',*,*,#158,.F.) ;
#172=ORIENTED_EDGE('',*,*,#158,.T.) ;
#173=ORIENTED_EDGE('',*,*,#136,.T.) ;
#182=ORIENTED_EDGE('',*,*,#58,.F.) ;
#183=ORIENTED_EDGE('',*,*,#180,.T.) ;
#184=ORIENTED_EDGE('',*,*,#44,.T.) ;
#185=ORIENTED_EDGE('',*,*,#153,.F.) ;
#194=ORIENTED_EDGE('',*,*,#180,.F.) ;
#195=ORIENTED_EDGE('',*,*,#51,.F.) ;
#218=ORIENTED_EDGE('',*,*,#211,.T.) ;
#219=ORIENTED_EDGE('',*,*,#216,.T.) ;
#247=ORIENTED_EDGE('',*,*,#233,.F.) ;
#248=ORIENTED_EDGE('',*,*,#90,.T.) ;
#249=ORIENTED_EDGE('',*,*,#240,.T.) ;
#250=ORIENTED_EDGE('',*,*,#245,.F.) ;
#259=ORIENTED_EDGE('',*,*,#240,.F.) ;
#260=ORIENTED_EDGE('',*,*,#107,.T.) ;
#261=ORIENTED_EDGE('',*,*,#233,.T.) ;
#262=ORIENTED_EDGE('',*,*,#257,.F.) ;
#281=ORIENTED_EDGE('',*,*,#274,.T.) ;
#282=ORIENTED_EDGE('',*,*,#245,.T.) ;
#283=ORIENTED_EDGE('',*,*,#279,.F.) ;
#284=ORIENTED_EDGE('',*,*,#211,.F.) ;
#293=ORIENTED_EDGE('',*,*,#279,.T.) ;
#294=ORIENTED_EDGE('',*,*,#257,.T.) ;
#295=ORIENTED_EDGE('',*,*,#274,.F.) ;
#296=ORIENTED_EDGE('',*,*,#216,.F.) ;
#64=EDGE_LOOP('',(#65,#66,#67,#68)) ;
#108=EDGE_LOOP('',(#109,#110)) ;
#137=EDGE_LOOP('',(#138,#139,#140,#141)) ;
#159=EDGE_LOOP('',(#160,#161,#162,#163)) ;
#171=EDGE_LOOP('',(#172,#173)) ;
#181=EDGE_LOOP('',(#182,#183,#184,#185)) ;
#193=EDGE_LOOP('',(#194,#195)) ;
#217=EDGE_LOOP('',(#218,#219)) ;
#246=EDGE_LOOP('',(#247,#248,#249,#250)) ;
#258=EDGE_LOOP('',(#259,#260,#261,#262)) ;
#280=EDGE_LOOP('',(#281,#282,#283,#284)) ;
#292=EDGE_LOOP('',(#293,#294,#295,#296)) ;
#21=MANIFOLD_SOLID_BREP('PartBody',#30) ;
#41=VERTEX_POINT('',#40) ;
#43=VERTEX_POINT('',#42) ;
#50=VERTEX_POINT('',#49) ;
#57=VERTEX_POINT('',#56) ;
#87=VERTEX_POINT('',#86) ;
#89=VERTEX_POINT('',#88) ;
#123=VERTEX_POINT('',#122) ;
#130=VERTEX_POINT('',#129) ;
#208=VERTEX_POINT('',#207) ;
#210=VERTEX_POINT('',#209) ;
#232=VERTEX_POINT('',#231) ;
#239=VERTEX_POINT('',#238) ;
#299=ADVANCED_BREP_SHAPE_REPRESENTATION('NONE',(#21),#16) ;
#112=ADVANCED_FACE('PartBody',(#69,#111),#35,.T.) ;
#143=ADVANCED_FACE('PartBody',(#142),#117,.T.) ;
#165=ADVANCED_FACE('PartBody',(#164),#148,.T.) ;
#175=ADVANCED_FACE('PartBody',(#174),#170,.T.) ;
#187=ADVANCED_FACE('PartBody',(#186),#35,.T.) ;
#197=ADVANCED_FACE('PartBody',(#196),#192,.F.) ;
#221=ADVANCED_FACE('PartBody',(#220),#202,.T.) ;
#252=ADVANCED_FACE('PartBody',(#251),#226,.T.) ;
#264=ADVANCED_FACE('PartBody',(#263),#226,.T.) ;
#286=ADVANCED_FACE('PartBody',(#285),#269,.T.) ;
#298=ADVANCED_FACE('PartBody',(#297),#291,.T.) ;
#4=APPLICATION_PROTOCOL_DEFINITION('international standard','ap242_managed_model_based_3d_engineering',2014,#1) ;
#70=B_SPLINE_CURVE_WITH_KNOTS('',5,(#71,#72,#73,#74,#75,#76,#77,#78,#79,#80,#81,#82,#83,#84,#85),.UNSPECIFIED.,.F.,.U.,(6,3,3,3,6),(0.,3.94720454476,6.389670573,10.4051414849,13.4066251453),.UNSPECIFIED.) ;
#91=B_SPLINE_CURVE_WITH_KNOTS('',5,(#92,#93,#94,#95,#96,#97,#98,#99,#100,#101,#102,#103,#104,#105,#106),.UNSPECIFIED.,.F.,.U.,(6,3,3,3,6),(0.,3.94720454472,6.38967057282,10.4051414845,13.4066251449),.UNSPECIFIED.) ;
#22=COLOUR_RGB('Colour',0.823529411765,0.823529411765,1.) ;
#69=FACE_OUTER_BOUND('',#64,.T.) ;
#142=FACE_OUTER_BOUND('',#137,.T.) ;
#164=FACE_OUTER_BOUND('',#159,.T.) ;
#174=FACE_OUTER_BOUND('',#171,.T.) ;
#186=FACE_OUTER_BOUND('',#181,.T.) ;
#196=FACE_OUTER_BOUND('',#193,.T.) ;
#220=FACE_OUTER_BOUND('',#217,.T.) ;
#251=FACE_OUTER_BOUND('',#246,.T.) ;
#263=FACE_OUTER_BOUND('',#258,.T.) ;
#285=FACE_OUTER_BOUND('',#280,.T.) ;
#297=FACE_OUTER_BOUND('',#292,.T.) ;
#9=PRODUCT_CATEGORY_RELATIONSHIP(' ',' ',#7,#8) ;
#6=PRODUCT_DEFINITION_FORMATION_WITH_SPECIFIED_SOURCE('00',' ',#5,.NOT_KNOWN.) ;
#20=SHAPE_DEFINITION_REPRESENTATION(#11,#19) ;
#12=(LENGTH_UNIT()NAMED_UNIT(*)SI_UNIT(.MILLI.,.METRE.)) ;
#13=(NAMED_UNIT(*)PLANE_ANGLE_UNIT()SI_UNIT($,.RADIAN.)) ;
#14=(NAMED_UNIT(*)SI_UNIT($,.STERADIAN.)SOLID_ANGLE_UNIT()) ;
#16=(GEOMETRIC_REPRESENTATION_CONTEXT(3)GLOBAL_UNCERTAINTY_ASSIGNED_CONTEXT((#15))GLOBAL_UNIT_ASSIGNED_CONTEXT((#12,#13,#14))REPRESENTATION_CONTEXT(' ',' ')) ;
ENDSEC;
END-ISO-10303-21;
