ISO-10303-21;
HEADER;
FILE_DESCRIPTION(('CATIA V5 STEP Exchange'),'2;1');

FILE_NAME('H:\\Rendering\\Cherie\\CE090650 PortaScopino.stp','2019-02-22T16:03:14+00:00',('none'),('none'),'Version 5-6 Release 2013','CATIA V5 STEP AP203','none');

FILE_SCHEMA(('CONFIG_CONTROL_DESIGN'));

ENDSEC;
DATA;
#5=PRODUCT('Standard Part 2017','','',(#2)) ;
#1=APPLICATION_CONTEXT('configuration controlled 3D design of mechanical parts and assemblies') ;
#14=PRODUCT_DEFINITION('',' ',#6,#3) ;
#16=SECURITY_CLASSIFICATION(' ',' ',#15) ;
#15=SECURITY_CLASSIFICATION_LEVEL('unclassified') ;
#46=CARTESIAN_POINT(' ',(0.,0.,0.)) ;
#51=CARTESIAN_POINT('Axis2P3D Location',(0.,6.,400.)) ;
#56=CARTESIAN_POINT('Line Origine',(6.92820323028,4.,400.)) ;
#60=CARTESIAN_POINT('Vertex',(9.23760430703,0.,400.)) ;
#62=CARTESIAN_POINT('Vertex',(4.61880215352,8.,400.)) ;
#65=CARTESIAN_POINT('Line Origine',(6.92820323028,-4.,400.)) ;
#69=CARTESIAN_POINT('Vertex',(4.61880215352,-8.,400.)) ;
#72=CARTESIAN_POINT('Line Origine',(8.881784197E-016,-8.,400.)) ;
#76=CARTESIAN_POINT('Vertex',(-4.61880215352,-8.,400.)) ;
#79=CARTESIAN_POINT('Line Origine',(-6.92820323028,-4.,400.)) ;
#83=CARTESIAN_POINT('Vertex',(-9.23760430703,-1.7763568394E-015,400.)) ;
#86=CARTESIAN_POINT('Line Origine',(-6.92820323028,4.,400.)) ;
#90=CARTESIAN_POINT('Vertex',(-4.61880215352,8.,400.)) ;
#93=CARTESIAN_POINT('Line Origine',(0.,8.,400.)) ;
#106=CARTESIAN_POINT('Axis2P3D Location',(0.,0.,400.)) ;
#110=CARTESIAN_POINT('Vertex',(-2.87655323163,5.26549537134,400.)) ;
#112=CARTESIAN_POINT('Vertex',(2.87655323163,-5.26549537134,400.)) ;
#115=CARTESIAN_POINT('Axis2P3D Location',(0.,0.,400.)) ;
#125=CARTESIAN_POINT('Axis2P3D Location',(0.,0.,435.)) ;
#130=CARTESIAN_POINT('Line Origine',(0.,8.,435.)) ;
#134=CARTESIAN_POINT('Vertex',(4.61880215352,8.,435.)) ;
#136=CARTESIAN_POINT('Vertex',(-4.61880215352,8.,435.)) ;
#139=CARTESIAN_POINT('Line Origine',(-6.92820323028,4.,435.)) ;
#143=CARTESIAN_POINT('Vertex',(-9.23760430703,-1.7763568394E-015,435.)) ;
#146=CARTESIAN_POINT('Line Origine',(-6.92820323028,-4.,435.)) ;
#150=CARTESIAN_POINT('Vertex',(-4.61880215352,-8.,435.)) ;
#153=CARTESIAN_POINT('Line Origine',(8.881784197E-016,-8.,435.)) ;
#157=CARTESIAN_POINT('Vertex',(4.61880215352,-8.,435.)) ;
#160=CARTESIAN_POINT('Line Origine',(6.92820323028,-4.,435.)) ;
#164=CARTESIAN_POINT('Vertex',(9.23760430703,0.,435.)) ;
#167=CARTESIAN_POINT('Line Origine',(6.92820323028,4.,435.)) ;
#181=CARTESIAN_POINT('Axis2P3D Location',(9.23760430703,0.,400.)) ;
#186=CARTESIAN_POINT('Line Origine',(9.23760430703,0.,417.5)) ;
#191=CARTESIAN_POINT('Line Origine',(4.61880215352,8.,417.5)) ;
#203=CARTESIAN_POINT('Axis2P3D Location',(4.61880215352,-8.,400.)) ;
#208=CARTESIAN_POINT('Line Origine',(4.61880215352,-8.,417.5)) ;
#220=CARTESIAN_POINT('Axis2P3D Location',(-4.61880215352,-8.,400.)) ;
#225=CARTESIAN_POINT('Line Origine',(-4.61880215352,-8.,417.5)) ;
#237=CARTESIAN_POINT('Axis2P3D Location',(-9.23760430703,-1.7763568394E-015,400.)) ;
#242=CARTESIAN_POINT('Line Origine',(-9.23760430703,-1.7763568394E-015,417.5)) ;
#254=CARTESIAN_POINT('Axis2P3D Location',(-4.61880215352,8.,400.)) ;
#259=CARTESIAN_POINT('Line Origine',(-4.61880215352,8.,417.5)) ;
#271=CARTESIAN_POINT('Axis2P3D Location',(4.61880215352,8.,400.)) ;
#283=CARTESIAN_POINT('Axis2P3D Location',(0.,0.,200.)) ;
#288=CARTESIAN_POINT('Line Origine',(19.2968779288,-35.3226981161,140.)) ;
#292=CARTESIAN_POINT('Vertex',(19.2968779288,-35.3226981161,0.)) ;
#294=CARTESIAN_POINT('Vertex',(19.2968779288,-35.3226981161,3.)) ;
#297=CARTESIAN_POINT('Axis2P3D Location',(0.,0.,3.)) ;
#301=CARTESIAN_POINT('Vertex',(-19.2968779288,35.3226981161,3.)) ;
#304=CARTESIAN_POINT('Line Origine',(-19.2968779288,35.3226981161,140.)) ;
#308=CARTESIAN_POINT('Vertex',(-19.2968779288,35.3226981161,0.)) ;
#311=CARTESIAN_POINT('Axis2P3D Location',(0.,0.,0.)) ;
#323=CARTESIAN_POINT('Axis2P3D Location',(0.,0.,0.)) ;
#328=CARTESIAN_POINT('Axis2P3D Location',(0.,0.,0.)) ;
#338=CARTESIAN_POINT('Axis2P3D Location',(0.,0.,3.)) ;
#350=CARTESIAN_POINT('Axis2P3D Location',(0.,40.25,3.)) ;
#359=CARTESIAN_POINT('Axis2P3D Location',(0.,0.,3.)) ;
#363=CARTESIAN_POINT('Vertex',(-19.1770215442,35.1033024756,3.)) ;
#365=CARTESIAN_POINT('Vertex',(19.1770215442,-35.1033024756,3.)) ;
#368=CARTESIAN_POINT('Axis2P3D Location',(0.,0.,3.)) ;
#378=CARTESIAN_POINT('Axis2P3D Location',(0.,0.,200.)) ;
#383=CARTESIAN_POINT('Line Origine',(19.1770215442,-35.1033024756,140.5)) ;
#387=CARTESIAN_POINT('Vertex',(19.1770215442,-35.1033024756,278.)) ;
#390=CARTESIAN_POINT('Axis2P3D Location',(0.,0.,278.)) ;
#394=CARTESIAN_POINT('Vertex',(-19.1770215442,35.1033024756,278.)) ;
#397=CARTESIAN_POINT('Line Origine',(-19.1770215442,35.1033024756,140.5)) ;
#409=CARTESIAN_POINT('Axis2P3D Location',(0.,0.,278.)) ;
#421=CARTESIAN_POINT('Axis2P3D Location',(0.,40.25,278.)) ;
#426=CARTESIAN_POINT('Axis2P3D Location',(0.,0.,278.)) ;
#430=CARTESIAN_POINT('Vertex',(-19.2968779288,35.3226981161,278.)) ;
#432=CARTESIAN_POINT('Vertex',(19.2968779288,-35.3226981161,278.)) ;
#435=CARTESIAN_POINT('Axis2P3D Location',(0.,0.,278.)) ;
#449=CARTESIAN_POINT('Line Origine',(-19.2968779288,35.3226981161,140.)) ;
#453=CARTESIAN_POINT('Vertex',(-19.2968779288,35.3226981161,280.)) ;
#456=CARTESIAN_POINT('Axis2P3D Location',(0.,0.,280.)) ;
#460=CARTESIAN_POINT('Vertex',(19.2968779288,-35.3226981161,280.)) ;
#463=CARTESIAN_POINT('Line Origine',(19.2968779288,-35.3226981161,140.)) ;
#475=CARTESIAN_POINT('Axis2P3D Location',(0.,0.,280.)) ;
#487=CARTESIAN_POINT('Axis2P3D Location',(0.,40.25,280.)) ;
#496=CARTESIAN_POINT('Axis2P3D Location',(0.,0.,280.)) ;
#500=CARTESIAN_POINT('Vertex',(-2.87655323163,5.26549537134,280.)) ;
#502=CARTESIAN_POINT('Vertex',(2.87655323163,-5.26549537134,280.)) ;
#505=CARTESIAN_POINT('Axis2P3D Location',(0.,0.,280.)) ;
#515=CARTESIAN_POINT('Axis2P3D Location',(0.,0.,200.)) ;
#520=CARTESIAN_POINT('Line Origine',(2.87655323163,-5.26549537134,340.)) ;
#525=CARTESIAN_POINT('Line Origine',(-2.87655323163,5.26549537134,340.)) ;
#52=DIRECTION('Axis2P3D Direction',(0.,0.,1.)) ;
#53=DIRECTION('Axis2P3D XDirection',(1.,0.,0.)) ;
#57=DIRECTION('Vector Direction',(-0.5,0.866025403784,0.)) ;
#66=DIRECTION('Vector Direction',(0.5,0.866025403784,0.)) ;
#73=DIRECTION('Vector Direction',(1.,0.,0.)) ;
#80=DIRECTION('Vector Direction',(0.5,-0.866025403784,0.)) ;
#87=DIRECTION('Vector Direction',(-0.5,-0.866025403784,0.)) ;
#94=DIRECTION('Vector Direction',(-1.,0.,0.)) ;
#107=DIRECTION('Axis2P3D Direction',(0.,0.,1.)) ;
#116=DIRECTION('Axis2P3D Direction',(0.,0.,1.)) ;
#126=DIRECTION('Axis2P3D Direction',(0.,0.,1.)) ;
#127=DIRECTION('Axis2P3D XDirection',(1.,0.,0.)) ;
#131=DIRECTION('Vector Direction',(-1.,0.,0.)) ;
#140=DIRECTION('Vector Direction',(-0.5,-0.866025403784,0.)) ;
#147=DIRECTION('Vector Direction',(0.5,-0.866025403784,0.)) ;
#154=DIRECTION('Vector Direction',(1.,0.,0.)) ;
#161=DIRECTION('Vector Direction',(0.5,0.866025403784,0.)) ;
#168=DIRECTION('Vector Direction',(-0.5,0.866025403784,0.)) ;
#182=DIRECTION('Axis2P3D Direction',(0.866025403784,0.5,-0.)) ;
#183=DIRECTION('Axis2P3D XDirection',(-0.5,0.866025403784,0.)) ;
#187=DIRECTION('Vector Direction',(0.,0.,1.)) ;
#192=DIRECTION('Vector Direction',(0.,0.,1.)) ;
#204=DIRECTION('Axis2P3D Direction',(0.866025403784,-0.5,0.)) ;
#205=DIRECTION('Axis2P3D XDirection',(0.5,0.866025403784,0.)) ;
#209=DIRECTION('Vector Direction',(0.,0.,1.)) ;
#221=DIRECTION('Axis2P3D Direction',(0.,-1.,0.)) ;
#222=DIRECTION('Axis2P3D XDirection',(1.,0.,0.)) ;
#226=DIRECTION('Vector Direction',(0.,0.,1.)) ;
#238=DIRECTION('Axis2P3D Direction',(-0.866025403784,-0.5,0.)) ;
#239=DIRECTION('Axis2P3D XDirection',(0.5,-0.866025403784,0.)) ;
#243=DIRECTION('Vector Direction',(0.,0.,1.)) ;
#255=DIRECTION('Axis2P3D Direction',(-0.866025403784,0.5,0.)) ;
#256=DIRECTION('Axis2P3D XDirection',(-0.5,-0.866025403784,-0.)) ;
#260=DIRECTION('Vector Direction',(0.,0.,1.)) ;
#272=DIRECTION('Axis2P3D Direction',(0.,1.,-0.)) ;
#273=DIRECTION('Axis2P3D XDirection',(-1.,0.,0.)) ;
#284=DIRECTION('Axis2P3D Direction',(0.,0.,1.)) ;
#285=DIRECTION('Axis2P3D XDirection',(-0.479425538604,0.87758256189,0.)) ;
#289=DIRECTION('Vector Direction',(0.,0.,1.)) ;
#298=DIRECTION('Axis2P3D Direction',(0.,0.,1.)) ;
#305=DIRECTION('Vector Direction',(0.,0.,1.)) ;
#312=DIRECTION('Axis2P3D Direction',(0.,0.,1.)) ;
#324=DIRECTION('Axis2P3D Direction',(0.,0.,1.)) ;
#325=DIRECTION('Axis2P3D XDirection',(1.,0.,0.)) ;
#329=DIRECTION('Axis2P3D Direction',(0.,0.,1.)) ;
#339=DIRECTION('Axis2P3D Direction',(0.,0.,1.)) ;
#351=DIRECTION('Axis2P3D Direction',(0.,0.,1.)) ;
#352=DIRECTION('Axis2P3D XDirection',(1.,0.,0.)) ;
#360=DIRECTION('Axis2P3D Direction',(0.,0.,1.)) ;
#369=DIRECTION('Axis2P3D Direction',(0.,0.,1.)) ;
#379=DIRECTION('Axis2P3D Direction',(0.,0.,1.)) ;
#380=DIRECTION('Axis2P3D XDirection',(-0.479425538604,0.87758256189,0.)) ;
#384=DIRECTION('Vector Direction',(0.,0.,1.)) ;
#391=DIRECTION('Axis2P3D Direction',(0.,0.,1.)) ;
#398=DIRECTION('Vector Direction',(0.,0.,1.)) ;
#410=DIRECTION('Axis2P3D Direction',(0.,0.,1.)) ;
#422=DIRECTION('Axis2P3D Direction',(0.,0.,1.)) ;
#423=DIRECTION('Axis2P3D XDirection',(1.,0.,0.)) ;
#427=DIRECTION('Axis2P3D Direction',(0.,0.,1.)) ;
#436=DIRECTION('Axis2P3D Direction',(0.,0.,1.)) ;
#450=DIRECTION('Vector Direction',(0.,0.,1.)) ;
#457=DIRECTION('Axis2P3D Direction',(0.,0.,1.)) ;
#464=DIRECTION('Vector Direction',(0.,0.,1.)) ;
#476=DIRECTION('Axis2P3D Direction',(0.,0.,1.)) ;
#488=DIRECTION('Axis2P3D Direction',(0.,0.,1.)) ;
#489=DIRECTION('Axis2P3D XDirection',(1.,0.,0.)) ;
#497=DIRECTION('Axis2P3D Direction',(0.,0.,1.)) ;
#506=DIRECTION('Axis2P3D Direction',(0.,0.,1.)) ;
#516=DIRECTION('Axis2P3D Direction',(0.,0.,1.)) ;
#517=DIRECTION('Axis2P3D XDirection',(-0.479425538604,0.87758256189,0.)) ;
#521=DIRECTION('Vector Direction',(0.,0.,1.)) ;
#526=DIRECTION('Vector Direction',(0.,0.,1.)) ;
#47=AXIS2_PLACEMENT_3D(' ',#46,$,$) ;
#54=AXIS2_PLACEMENT_3D('Plane Axis2P3D',#51,#52,#53) ;
#108=AXIS2_PLACEMENT_3D('Circle Axis2P3D',#106,#107,$) ;
#117=AXIS2_PLACEMENT_3D('Circle Axis2P3D',#115,#116,$) ;
#128=AXIS2_PLACEMENT_3D('Plane Axis2P3D',#125,#126,#127) ;
#184=AXIS2_PLACEMENT_3D('Plane Axis2P3D',#181,#182,#183) ;
#206=AXIS2_PLACEMENT_3D('Plane Axis2P3D',#203,#204,#205) ;
#223=AXIS2_PLACEMENT_3D('Plane Axis2P3D',#220,#221,#222) ;
#240=AXIS2_PLACEMENT_3D('Plane Axis2P3D',#237,#238,#239) ;
#257=AXIS2_PLACEMENT_3D('Plane Axis2P3D',#254,#255,#256) ;
#274=AXIS2_PLACEMENT_3D('Plane Axis2P3D',#271,#272,#273) ;
#286=AXIS2_PLACEMENT_3D('Cylinder Axis2P3D',#283,#284,#285) ;
#299=AXIS2_PLACEMENT_3D('Circle Axis2P3D',#297,#298,$) ;
#313=AXIS2_PLACEMENT_3D('Circle Axis2P3D',#311,#312,$) ;
#326=AXIS2_PLACEMENT_3D('Plane Axis2P3D',#323,#324,#325) ;
#330=AXIS2_PLACEMENT_3D('Circle Axis2P3D',#328,#329,$) ;
#340=AXIS2_PLACEMENT_3D('Circle Axis2P3D',#338,#339,$) ;
#353=AXIS2_PLACEMENT_3D('Plane Axis2P3D',#350,#351,#352) ;
#361=AXIS2_PLACEMENT_3D('Circle Axis2P3D',#359,#360,$) ;
#370=AXIS2_PLACEMENT_3D('Circle Axis2P3D',#368,#369,$) ;
#381=AXIS2_PLACEMENT_3D('Cylinder Axis2P3D',#378,#379,#380) ;
#392=AXIS2_PLACEMENT_3D('Circle Axis2P3D',#390,#391,$) ;
#411=AXIS2_PLACEMENT_3D('Circle Axis2P3D',#409,#410,$) ;
#424=AXIS2_PLACEMENT_3D('Plane Axis2P3D',#421,#422,#423) ;
#428=AXIS2_PLACEMENT_3D('Circle Axis2P3D',#426,#427,$) ;
#437=AXIS2_PLACEMENT_3D('Circle Axis2P3D',#435,#436,$) ;
#458=AXIS2_PLACEMENT_3D('Circle Axis2P3D',#456,#457,$) ;
#477=AXIS2_PLACEMENT_3D('Circle Axis2P3D',#475,#476,$) ;
#490=AXIS2_PLACEMENT_3D('Plane Axis2P3D',#487,#488,#489) ;
#498=AXIS2_PLACEMENT_3D('Circle Axis2P3D',#496,#497,$) ;
#507=AXIS2_PLACEMENT_3D('Circle Axis2P3D',#505,#506,$) ;
#518=AXIS2_PLACEMENT_3D('Cylinder Axis2P3D',#515,#516,#517) ;
#40=PRODUCT_DEFINITION_SHAPE(' ',' ',#14) ;
#31=APPROVAL_PERSON_ORGANIZATION(#25,#21,#19) ;
#25=PERSON_AND_ORGANIZATION(#22,#23) ;
#22=PERSON(' ',' ',' ',$,$,$) ;
#23=ORGANIZATION(' ',' ',' ') ;
#21=APPROVAL(#20,' ') ;
#20=APPROVAL_STATUS('not_yet_approved') ;
#19=APPROVAL_ROLE('APPROVER') ;
#13=DATE_AND_TIME(#11,#12) ;
#12=LOCAL_TIME(17,3,14.,#10) ;
#10=COORDINATED_UNIVERSAL_TIME_OFFSET(0,0,.AHEAD.) ;
#99=ORIENTED_EDGE('',*,*,#64,.F.) ;
#100=ORIENTED_EDGE('',*,*,#71,.F.) ;
#101=ORIENTED_EDGE('',*,*,#78,.F.) ;
#102=ORIENTED_EDGE('',*,*,#85,.F.) ;
#103=ORIENTED_EDGE('',*,*,#92,.F.) ;
#104=ORIENTED_EDGE('',*,*,#97,.F.) ;
#121=ORIENTED_EDGE('',*,*,#114,.T.) ;
#122=ORIENTED_EDGE('',*,*,#119,.T.) ;
#173=ORIENTED_EDGE('',*,*,#138,.T.) ;
#174=ORIENTED_EDGE('',*,*,#145,.T.) ;
#175=ORIENTED_EDGE('',*,*,#152,.T.) ;
#176=ORIENTED_EDGE('',*,*,#159,.T.) ;
#177=ORIENTED_EDGE('',*,*,#166,.T.) ;
#178=ORIENTED_EDGE('',*,*,#171,.T.) ;
#197=ORIENTED_EDGE('',*,*,#190,.F.) ;
#198=ORIENTED_EDGE('',*,*,#64,.T.) ;
#199=ORIENTED_EDGE('',*,*,#195,.T.) ;
#200=ORIENTED_EDGE('',*,*,#171,.F.) ;
#214=ORIENTED_EDGE('',*,*,#212,.F.) ;
#215=ORIENTED_EDGE('',*,*,#71,.T.) ;
#216=ORIENTED_EDGE('',*,*,#190,.T.) ;
#217=ORIENTED_EDGE('',*,*,#166,.F.) ;
#231=ORIENTED_EDGE('',*,*,#229,.F.) ;
#232=ORIENTED_EDGE('',*,*,#78,.T.) ;
#233=ORIENTED_EDGE('',*,*,#212,.T.) ;
#234=ORIENTED_EDGE('',*,*,#159,.F.) ;
#248=ORIENTED_EDGE('',*,*,#246,.F.) ;
#249=ORIENTED_EDGE('',*,*,#85,.T.) ;
#250=ORIENTED_EDGE('',*,*,#229,.T.) ;
#251=ORIENTED_EDGE('',*,*,#152,.F.) ;
#265=ORIENTED_EDGE('',*,*,#263,.F.) ;
#266=ORIENTED_EDGE('',*,*,#92,.T.) ;
#267=ORIENTED_EDGE('',*,*,#246,.T.) ;
#268=ORIENTED_EDGE('',*,*,#145,.F.) ;
#277=ORIENTED_EDGE('',*,*,#195,.F.) ;
#278=ORIENTED_EDGE('',*,*,#97,.T.) ;
#279=ORIENTED_EDGE('',*,*,#263,.T.) ;
#280=ORIENTED_EDGE('',*,*,#138,.F.) ;
#317=ORIENTED_EDGE('',*,*,#296,.T.) ;
#318=ORIENTED_EDGE('',*,*,#303,.F.) ;
#319=ORIENTED_EDGE('',*,*,#310,.F.) ;
#320=ORIENTED_EDGE('',*,*,#315,.T.) ;
#334=ORIENTED_EDGE('',*,*,#332,.F.) ;
#335=ORIENTED_EDGE('',*,*,#315,.F.) ;
#344=ORIENTED_EDGE('',*,*,#310,.T.) ;
#345=ORIENTED_EDGE('',*,*,#342,.F.) ;
#346=ORIENTED_EDGE('',*,*,#296,.F.) ;
#347=ORIENTED_EDGE('',*,*,#332,.T.) ;
#356=ORIENTED_EDGE('',*,*,#342,.T.) ;
#357=ORIENTED_EDGE('',*,*,#303,.T.) ;
#374=ORIENTED_EDGE('',*,*,#367,.F.) ;
#375=ORIENTED_EDGE('',*,*,#372,.F.) ;
#403=ORIENTED_EDGE('',*,*,#389,.T.) ;
#404=ORIENTED_EDGE('',*,*,#396,.F.) ;
#405=ORIENTED_EDGE('',*,*,#401,.F.) ;
#406=ORIENTED_EDGE('',*,*,#367,.T.) ;
#415=ORIENTED_EDGE('',*,*,#401,.T.) ;
#416=ORIENTED_EDGE('',*,*,#413,.F.) ;
#417=ORIENTED_EDGE('',*,*,#389,.F.) ;
#418=ORIENTED_EDGE('',*,*,#372,.T.) ;
#441=ORIENTED_EDGE('',*,*,#434,.F.) ;
#442=ORIENTED_EDGE('',*,*,#439,.F.) ;
#445=ORIENTED_EDGE('',*,*,#413,.T.) ;
#446=ORIENTED_EDGE('',*,*,#396,.T.) ;
#469=ORIENTED_EDGE('',*,*,#455,.T.) ;
#470=ORIENTED_EDGE('',*,*,#462,.F.) ;
#471=ORIENTED_EDGE('',*,*,#467,.F.) ;
#472=ORIENTED_EDGE('',*,*,#439,.T.) ;
#481=ORIENTED_EDGE('',*,*,#467,.T.) ;
#482=ORIENTED_EDGE('',*,*,#479,.F.) ;
#483=ORIENTED_EDGE('',*,*,#455,.F.) ;
#484=ORIENTED_EDGE('',*,*,#434,.T.) ;
#493=ORIENTED_EDGE('',*,*,#462,.T.) ;
#494=ORIENTED_EDGE('',*,*,#479,.T.) ;
#511=ORIENTED_EDGE('',*,*,#504,.F.) ;
#512=ORIENTED_EDGE('',*,*,#509,.F.) ;
#531=ORIENTED_EDGE('',*,*,#524,.T.) ;
#532=ORIENTED_EDGE('',*,*,#114,.F.) ;
#533=ORIENTED_EDGE('',*,*,#529,.F.) ;
#534=ORIENTED_EDGE('',*,*,#504,.T.) ;
#538=ORIENTED_EDGE('',*,*,#529,.T.) ;
#539=ORIENTED_EDGE('',*,*,#119,.F.) ;
#540=ORIENTED_EDGE('',*,*,#524,.F.) ;
#541=ORIENTED_EDGE('',*,*,#509,.T.) ;
#123=FACE_BOUND('',#120,.T.) ;
#376=FACE_BOUND('',#373,.T.) ;
#447=FACE_BOUND('',#444,.T.) ;
#513=FACE_BOUND('',#510,.T.) ;
#50=CLOSED_SHELL('Closed Shell',(#124,#180,#202,#219,#236,#253,#270,#282,#322,#337,#349,#377,#408,#420,#448,#474,#486,#514,#536,#543)) ;
#58=VECTOR('Line Direction',#57,1.) ;
#67=VECTOR('Line Direction',#66,1.) ;
#74=VECTOR('Line Direction',#73,1.) ;
#81=VECTOR('Line Direction',#80,1.) ;
#88=VECTOR('Line Direction',#87,1.) ;
#95=VECTOR('Line Direction',#94,1.) ;
#132=VECTOR('Line Direction',#131,1.) ;
#141=VECTOR('Line Direction',#140,1.) ;
#148=VECTOR('Line Direction',#147,1.) ;
#155=VECTOR('Line Direction',#154,1.) ;
#162=VECTOR('Line Direction',#161,1.) ;
#169=VECTOR('Line Direction',#168,1.) ;
#188=VECTOR('Line Direction',#187,1.) ;
#193=VECTOR('Line Direction',#192,1.) ;
#210=VECTOR('Line Direction',#209,1.) ;
#227=VECTOR('Line Direction',#226,1.) ;
#244=VECTOR('Line Direction',#243,1.) ;
#261=VECTOR('Line Direction',#260,1.) ;
#290=VECTOR('Line Direction',#289,1.) ;
#306=VECTOR('Line Direction',#305,1.) ;
#385=VECTOR('Line Direction',#384,1.) ;
#399=VECTOR('Line Direction',#398,1.) ;
#451=VECTOR('Line Direction',#450,1.) ;
#465=VECTOR('Line Direction',#464,1.) ;
#522=VECTOR('Line Direction',#521,1.) ;
#527=VECTOR('Line Direction',#526,1.) ;
#545=ADVANCED_BREP_SHAPE_REPRESENTATION('NONE',(#544),#45) ;
#48=SHAPE_REPRESENTATION(' ',(#47),#45) ;
#124=ADVANCED_FACE('PartBody',(#105,#123),#55,.F.) ;
#180=ADVANCED_FACE('PartBody',(#179),#129,.T.) ;
#202=ADVANCED_FACE('PartBody',(#201),#185,.T.) ;
#219=ADVANCED_FACE('PartBody',(#218),#207,.T.) ;
#236=ADVANCED_FACE('PartBody',(#235),#224,.T.) ;
#253=ADVANCED_FACE('PartBody',(#252),#241,.T.) ;
#270=ADVANCED_FACE('PartBody',(#269),#258,.T.) ;
#282=ADVANCED_FACE('PartBody',(#281),#275,.T.) ;
#322=ADVANCED_FACE('PartBody',(#321),#287,.T.) ;
#337=ADVANCED_FACE('PartBody',(#336),#327,.F.) ;
#349=ADVANCED_FACE('PartBody',(#348),#287,.T.) ;
#377=ADVANCED_FACE('PartBody',(#358,#376),#354,.T.) ;
#408=ADVANCED_FACE('PartBody',(#407),#382,.T.) ;
#420=ADVANCED_FACE('PartBody',(#419),#382,.T.) ;
#448=ADVANCED_FACE('PartBody',(#443,#447),#425,.F.) ;
#474=ADVANCED_FACE('PartBody',(#473),#287,.T.) ;
#486=ADVANCED_FACE('PartBody',(#485),#287,.T.) ;
#514=ADVANCED_FACE('PartBody',(#495,#513),#491,.T.) ;
#536=ADVANCED_FACE('PartBody',(#535),#519,.T.) ;
#543=ADVANCED_FACE('PartBody',(#542),#519,.T.) ;
#4=APPLICATION_PROTOCOL_DEFINITION('international standard','config_control_design',1994,#1) ;
#32=APPROVAL_DATE_TIME(#13,#21) ;
#544=MANIFOLD_SOLID_BREP('PartBody',#50) ;
#11=CALENDAR_DATE(2019,22,2) ;
#30=CC_DESIGN_APPROVAL(#21,(#16,#6,#14)) ;
#18=CC_DESIGN_DATE_AND_TIME_ASSIGNMENT(#13,#17,(#16)) ;
#29=CC_DESIGN_DATE_AND_TIME_ASSIGNMENT(#13,#28,(#14)) ;
#17=DATE_TIME_ROLE('classification_date') ;
#28=DATE_TIME_ROLE('creation_date') ;
#27=CC_DESIGN_PERSON_AND_ORGANIZATION_ASSIGNMENT(#25,#26,(#16)) ;
#33=CC_DESIGN_PERSON_AND_ORGANIZATION_ASSIGNMENT(#25,#34,(#6)) ;
#35=CC_DESIGN_PERSON_AND_ORGANIZATION_ASSIGNMENT(#25,#36,(#6,#14)) ;
#37=CC_DESIGN_PERSON_AND_ORGANIZATION_ASSIGNMENT(#25,#38,(#5)) ;
#26=PERSON_AND_ORGANIZATION_ROLE('classification_officer') ;
#34=PERSON_AND_ORGANIZATION_ROLE('design_supplier') ;
#36=PERSON_AND_ORGANIZATION_ROLE('creator') ;
#38=PERSON_AND_ORGANIZATION_ROLE('design_owner') ;
#39=CC_DESIGN_SECURITY_CLASSIFICATION(#16,(#6)) ;
#109=CIRCLE('generated circle',#108,6.) ;
#118=CIRCLE('generated circle',#117,6.) ;
#300=CIRCLE('generated circle',#299,40.25) ;
#314=CIRCLE('generated circle',#313,40.25) ;
#331=CIRCLE('generated circle',#330,40.25) ;
#341=CIRCLE('generated circle',#340,40.25) ;
#362=CIRCLE('generated circle',#361,40.) ;
#371=CIRCLE('generated circle',#370,40.) ;
#393=CIRCLE('generated circle',#392,40.) ;
#412=CIRCLE('generated circle',#411,40.) ;
#429=CIRCLE('generated circle',#428,40.25) ;
#438=CIRCLE('generated circle',#437,40.25) ;
#459=CIRCLE('generated circle',#458,40.25) ;
#478=CIRCLE('generated circle',#477,40.25) ;
#499=CIRCLE('generated circle',#498,6.) ;
#508=CIRCLE('generated circle',#507,6.) ;
#546=SHAPE_REPRESENTATION_RELATIONSHIP(' ',' ',#48,#545) ;
#287=CYLINDRICAL_SURFACE('generated cylinder',#286,40.25) ;
#382=CYLINDRICAL_SURFACE('generated cylinder',#381,40.) ;
#519=CYLINDRICAL_SURFACE('generated cylinder',#518,6.) ;
#3=DESIGN_CONTEXT(' ',#1,'design') ;
#64=EDGE_CURVE('',#61,#63,#59,.T.) ;
#71=EDGE_CURVE('',#70,#61,#68,.T.) ;
#78=EDGE_CURVE('',#77,#70,#75,.T.) ;
#85=EDGE_CURVE('',#84,#77,#82,.T.) ;
#92=EDGE_CURVE('',#91,#84,#89,.T.) ;
#97=EDGE_CURVE('',#63,#91,#96,.T.) ;
#114=EDGE_CURVE('',#111,#113,#109,.T.) ;
#119=EDGE_CURVE('',#113,#111,#118,.T.) ;
#138=EDGE_CURVE('',#135,#137,#133,.T.) ;
#145=EDGE_CURVE('',#137,#144,#142,.T.) ;
#152=EDGE_CURVE('',#144,#151,#149,.T.) ;
#159=EDGE_CURVE('',#151,#158,#156,.T.) ;
#166=EDGE_CURVE('',#158,#165,#163,.T.) ;
#171=EDGE_CURVE('',#165,#135,#170,.T.) ;
#190=EDGE_CURVE('',#61,#165,#189,.T.) ;
#195=EDGE_CURVE('',#63,#135,#194,.T.) ;
#212=EDGE_CURVE('',#70,#158,#211,.T.) ;
#229=EDGE_CURVE('',#77,#151,#228,.T.) ;
#246=EDGE_CURVE('',#84,#144,#245,.T.) ;
#263=EDGE_CURVE('',#91,#137,#262,.T.) ;
#296=EDGE_CURVE('',#293,#295,#291,.T.) ;
#303=EDGE_CURVE('',#302,#295,#300,.T.) ;
#310=EDGE_CURVE('',#309,#302,#307,.T.) ;
#315=EDGE_CURVE('',#309,#293,#314,.T.) ;
#332=EDGE_CURVE('',#293,#309,#331,.T.) ;
#342=EDGE_CURVE('',#295,#302,#341,.T.) ;
#367=EDGE_CURVE('',#364,#366,#362,.T.) ;
#372=EDGE_CURVE('',#366,#364,#371,.T.) ;
#389=EDGE_CURVE('',#366,#388,#386,.T.) ;
#396=EDGE_CURVE('',#395,#388,#393,.T.) ;
#401=EDGE_CURVE('',#364,#395,#400,.T.) ;
#413=EDGE_CURVE('',#388,#395,#412,.T.) ;
#434=EDGE_CURVE('',#431,#433,#429,.T.) ;
#439=EDGE_CURVE('',#433,#431,#438,.T.) ;
#455=EDGE_CURVE('',#431,#454,#452,.T.) ;
#462=EDGE_CURVE('',#461,#454,#459,.T.) ;
#467=EDGE_CURVE('',#433,#461,#466,.T.) ;
#479=EDGE_CURVE('',#454,#461,#478,.T.) ;
#504=EDGE_CURVE('',#501,#503,#499,.T.) ;
#509=EDGE_CURVE('',#503,#501,#508,.T.) ;
#524=EDGE_CURVE('',#503,#113,#523,.T.) ;
#529=EDGE_CURVE('',#501,#111,#528,.T.) ;
#98=EDGE_LOOP('',(#99,#100,#101,#102,#103,#104)) ;
#120=EDGE_LOOP('',(#121,#122)) ;
#172=EDGE_LOOP('',(#173,#174,#175,#176,#177,#178)) ;
#196=EDGE_LOOP('',(#197,#198,#199,#200)) ;
#213=EDGE_LOOP('',(#214,#215,#216,#217)) ;
#230=EDGE_LOOP('',(#231,#232,#233,#234)) ;
#247=EDGE_LOOP('',(#248,#249,#250,#251)) ;
#264=EDGE_LOOP('',(#265,#266,#267,#268)) ;
#276=EDGE_LOOP('',(#277,#278,#279,#280)) ;
#316=EDGE_LOOP('',(#317,#318,#319,#320)) ;
#333=EDGE_LOOP('',(#334,#335)) ;
#343=EDGE_LOOP('',(#344,#345,#346,#347)) ;
#355=EDGE_LOOP('',(#356,#357)) ;
#373=EDGE_LOOP('',(#374,#375)) ;
#402=EDGE_LOOP('',(#403,#404,#405,#406)) ;
#414=EDGE_LOOP('',(#415,#416,#417,#418)) ;
#440=EDGE_LOOP('',(#441,#442)) ;
#444=EDGE_LOOP('',(#445,#446)) ;
#468=EDGE_LOOP('',(#469,#470,#471,#472)) ;
#480=EDGE_LOOP('',(#481,#482,#483,#484)) ;
#492=EDGE_LOOP('',(#493,#494)) ;
#510=EDGE_LOOP('',(#511,#512)) ;
#530=EDGE_LOOP('',(#531,#532,#533,#534)) ;
#537=EDGE_LOOP('',(#538,#539,#540,#541)) ;
#105=FACE_OUTER_BOUND('',#98,.T.) ;
#179=FACE_OUTER_BOUND('',#172,.T.) ;
#201=FACE_OUTER_BOUND('',#196,.T.) ;
#218=FACE_OUTER_BOUND('',#213,.T.) ;
#235=FACE_OUTER_BOUND('',#230,.T.) ;
#252=FACE_OUTER_BOUND('',#247,.T.) ;
#269=FACE_OUTER_BOUND('',#264,.T.) ;
#281=FACE_OUTER_BOUND('',#276,.T.) ;
#321=FACE_OUTER_BOUND('',#316,.T.) ;
#336=FACE_OUTER_BOUND('',#333,.T.) ;
#348=FACE_OUTER_BOUND('',#343,.T.) ;
#358=FACE_OUTER_BOUND('',#355,.T.) ;
#407=FACE_OUTER_BOUND('',#402,.T.) ;
#419=FACE_OUTER_BOUND('',#414,.T.) ;
#443=FACE_OUTER_BOUND('',#440,.T.) ;
#473=FACE_OUTER_BOUND('',#468,.T.) ;
#485=FACE_OUTER_BOUND('',#480,.T.) ;
#495=FACE_OUTER_BOUND('',#492,.T.) ;
#535=FACE_OUTER_BOUND('',#530,.T.) ;
#542=FACE_OUTER_BOUND('',#537,.T.) ;
#44=UNCERTAINTY_MEASURE_WITH_UNIT(LENGTH_MEASURE(0.005),#41,'distance_accuracy_value','CONFUSED CURVE UNCERTAINTY') ;
#59=LINE('Line',#56,#58) ;
#68=LINE('Line',#65,#67) ;
#75=LINE('Line',#72,#74) ;
#82=LINE('Line',#79,#81) ;
#89=LINE('Line',#86,#88) ;
#96=LINE('Line',#93,#95) ;
#133=LINE('Line',#130,#132) ;
#142=LINE('Line',#139,#141) ;
#149=LINE('Line',#146,#148) ;
#156=LINE('Line',#153,#155) ;
#163=LINE('Line',#160,#162) ;
#170=LINE('Line',#167,#169) ;
#189=LINE('Line',#186,#188) ;
#194=LINE('Line',#191,#193) ;
#211=LINE('Line',#208,#210) ;
#228=LINE('Line',#225,#227) ;
#245=LINE('Line',#242,#244) ;
#262=LINE('Line',#259,#261) ;
#291=LINE('Line',#288,#290) ;
#307=LINE('Line',#304,#306) ;
#386=LINE('Line',#383,#385) ;
#400=LINE('Line',#397,#399) ;
#452=LINE('Line',#449,#451) ;
#466=LINE('Line',#463,#465) ;
#523=LINE('Line',#520,#522) ;
#528=LINE('Line',#525,#527) ;
#2=MECHANICAL_CONTEXT(' ',#1,'mechanical') ;
#24=PERSONAL_ADDRESS(' ',' ',' ',' ',' ',' ',' ',' ',' ',' ',' ',' ',(#22),' ') ;
#55=PLANE('',#54) ;
#129=PLANE('',#128) ;
#185=PLANE('',#184) ;
#207=PLANE('',#206) ;
#224=PLANE('',#223) ;
#241=PLANE('',#240) ;
#258=PLANE('',#257) ;
#275=PLANE('',#274) ;
#327=PLANE('',#326) ;
#354=PLANE('',#353) ;
#425=PLANE('',#424) ;
#491=PLANE('',#490) ;
#7=PRODUCT_CATEGORY('part',$) ;
#9=PRODUCT_CATEGORY_RELATIONSHIP(' ',' ',#7,#8) ;
#6=PRODUCT_DEFINITION_FORMATION_WITH_SPECIFIED_SOURCE('00',' ',#5,.NOT_KNOWN.) ;
#8=PRODUCT_RELATED_PRODUCT_CATEGORY('detail',$,(#5)) ;
#49=SHAPE_DEFINITION_REPRESENTATION(#40,#48) ;
#61=VERTEX_POINT('',#60) ;
#63=VERTEX_POINT('',#62) ;
#70=VERTEX_POINT('',#69) ;
#77=VERTEX_POINT('',#76) ;
#84=VERTEX_POINT('',#83) ;
#91=VERTEX_POINT('',#90) ;
#111=VERTEX_POINT('',#110) ;
#113=VERTEX_POINT('',#112) ;
#135=VERTEX_POINT('',#134) ;
#137=VERTEX_POINT('',#136) ;
#144=VERTEX_POINT('',#143) ;
#151=VERTEX_POINT('',#150) ;
#158=VERTEX_POINT('',#157) ;
#165=VERTEX_POINT('',#164) ;
#293=VERTEX_POINT('',#292) ;
#295=VERTEX_POINT('',#294) ;
#302=VERTEX_POINT('',#301) ;
#309=VERTEX_POINT('',#308) ;
#364=VERTEX_POINT('',#363) ;
#366=VERTEX_POINT('',#365) ;
#388=VERTEX_POINT('',#387) ;
#395=VERTEX_POINT('',#394) ;
#431=VERTEX_POINT('',#430) ;
#433=VERTEX_POINT('',#432) ;
#454=VERTEX_POINT('',#453) ;
#461=VERTEX_POINT('',#460) ;
#501=VERTEX_POINT('',#500) ;
#503=VERTEX_POINT('',#502) ;
#41=(LENGTH_UNIT()NAMED_UNIT(*)SI_UNIT(.MILLI.,.METRE.)) ;
#42=(NAMED_UNIT(*)PLANE_ANGLE_UNIT()SI_UNIT($,.RADIAN.)) ;
#43=(NAMED_UNIT(*)SI_UNIT($,.STERADIAN.)SOLID_ANGLE_UNIT()) ;
#45=(GEOMETRIC_REPRESENTATION_CONTEXT(3)GLOBAL_UNCERTAINTY_ASSIGNED_CONTEXT((#44))GLOBAL_UNIT_ASSIGNED_CONTEXT((#41,#42,#43))REPRESENTATION_CONTEXT(' ',' ')) ;
ENDSEC;
END-ISO-10303-21;
